12.212 cursos gratis
8.342.883 alumnos
Facebook Twitter YouTube
Busca cursos gratis:

Curso de guitarra

Autor: Memo Cabrera
Curso:
8,50/10 (163 opiniones) |274809 alumnos|Fecha publicación: 12/04/2005
Envía un mensaje al autor

Capítulo 7:

 Tablaturas

Las tablaturas es un metodo  de representar la musica por medio de diagramas que muestran al interprete donde se ponen los dedos y el ritmo que lleva la rola.

Estructura de la Tablatura

Está integrada por 6 líneas que representa las seis cuerdas de la Guitarra. La línea de arriba representa la primera cuerda, o la más delgada de la Guitarra, mientras que la línea de abajo representa la sexta, o la más gruesa de la Guitarra. Una línea vertical indica el principio o final de un compás y la doble línea vertical indica el final de la tablatura. Como se puede ver en el ejemplo:

1ra. cuerda e |----------------------------------|| 2da. cuerda B |----------------------------------|| 3ra. cuerda G |----------------------------------|| 4ta. cuerda D |----------------------------------|| 5ta. cuerda A |----------------------------------|| 6ta. cuerda E |----------------------------------|| \ Esta es la cuerda más gruesa

Las letras e, B, G, D, A y E indican el nombre de la nota que produce la cuerda tocada al aire, de la más delgada a la más gruesa. La 'e' minúscula es la nota de Mi pero más aguda (dos octavas más). A veces se ven éstas letras en las tablaturas y otras veces no. La razón de que no las lleva es que esta es la afinación estándar y se da por entendido que es de esta forma.

Las Pisadas

Los números que encontremos sobre cada línea indican el espacio en donde se debe pisar la cuerda con los dedos de la mano izquierda, y tocarla con la mano derecha. Por ejemplo, si el número 3 ésta sobre la 2da. línea, significa que debemos tocar (hacer sonar) la 2da. cuerda pisada en el 3er. espacio (o traste). El "0" (cero) indica que se debe tocar la cuerda al aire (sin pisarla).

|-----------------------------------------|| |-------3---------------------------------|| |-----------------------------------------|| |-----------------------------------------|| |-----------------------------------------|| |-----------------------------------------||

Cuando se presente un número fuera de la tablatura (generalmente abajo), en este caso el 2, indica con cual dedo de la mano izquierda debe ser presionada la posición que te indica en la tablatura.

El número 1 indica el dedo índice de la mano izquierda.

El número 2 indica el dedo medio de la mano izquierda.

El número 3 indica el dedo anular de la mano izquierda.

El número 4 indica el dedo meñique de la mano izquierda.

Cuando se quiere que dos o más cuerdas suenen al mismo tiempo se ponen los números en vertical, de ésta forma:

|-----------------------------------------|| |-----------1-----------------------------|| |-----------0-----------------------------|| |-----------2-----------------------------|| |-----------3-----------------------------|| |-----------------------------------------||

La siguiente tablatura te indica que debes tocar una secuencia de notas, en esta caso la escala de Do mayor. Las notas son Do, Re, Mi, Fa, Sol, La, Si y Do (C, D, E, F, G, A, B, C):

|-----------------------------------------|| |------------------------------0---1------|| |----------------------0---2--------------|| |----------0---2---3----------------------|| |------3----------------------------------|| |-----------------------------------------||

Cuando se presentan números fuera de la tablatura (generalmente abajo), indican con que dedos de la mano izquierda deben ser presionadas las posiciones que te indica la tablatura. El número 1 indica el dedo índice, el 2 el dedo medio, el 3 el dedo anular y el 4 el dedo meñique.

Ahora, en la siguiente tablatura ya no sólo te indica que notas debes tocar, sino también con que dedo de la mano izquierda debes pisar cada una de ellas. La siguiente secuencia de notas pertenece a la escala de Re mayor:

|--------------------------0--2--3--5--7--9--10--|| |-----------------0--2--3------------------------|| |-----------0--2---------------------------------|| |--0--2--4---------------------------------------|| |------------------------------------------------|| |------------------------------------------------|| 1 3 1 1 2 1 2 4 1 3 4

La Duración de Sonido

Este es el aspecto donde difiere más con la partitura. La mayoría de las tablaturas no te dan información sobre la duración de las notas, aunque esto no es de vital importancia

Pero, si es posible intentar algo. En los ejemplos anteriores los números están separados en iguales distancias entre si, así que podemos asumir que todas las notas tienen la misma duración de sonido. El espacio entre los números te indicará cual nota dura más que otra. En los ejemplos siguientes notarás el buen objetivo de separar los números según la duración de cada nota:

Always

Bon Jovi (intro)

e|--------------------------|

B|----7--9--10--9--7--------|

G|-9------------------9--9--| 2X

D|--------------------------|

A|--------------------------|

E|--------------------------|

Capítulo siguiente - La mano derecha (1ra. Parte)
Capítulo anterior - El diapasón

Nuestras novedades en tu e-mail

Escribe tu e-mail:

Al presionar "Recibir" estás dándote de alta y aceptas las condiciones legales de mailxmail

Cursos similares a Curso de guitarra


  • Vídeo
  • Alumnos
  • Valoración
  • Cursos
1. Curso de guitarra básica
Este curso te guitarra ofrece unos conocimientos básicos para que te vayas... [05/11/04]
267.866  
2. Tocar melodías en guitarra sin saber música
Desde la primera vez se podrán ejecutar las melodías que sean de su agrado sin... [28/07/05]
25.289  
3. Iniciación en la utilización de la guitarra
Este es un curso fácil para aprender a tocar guitarra. Sólo debes ponerle... [15/09/05]
43.614  

¿Qué es mailxmail.com?|ISSN: 1699-4914|Ayuda
Publicidad|Condiciones legales de mailxmail


Ponte al día de Guitarra con nuestros cursos gratis